#------------------------PLEASE NOTE---------------------------------#
#This file is the author's own work and represents their interpretation 
of the song. You may only use this file for private study, 
scholarship, or research. 
DO NOT STEAL MY WORK BY REMOVING MY NAME AND POSTING IT ONLINE AS YOURS !!!     
#---------------------------------------------------------------------#
TABBY CAT MUSIC ARCHIVES 
(If not found, highlight and copy the following address and put it directly into 
your browser address box. https://sites.google.com/site/tcmarelocatorpage/home)
********************************************************************************
Transcribed by: asf0@comcast.net  Alice Franceschini
Date:   December 2, 2019
Album: Hot Grubb Big Time
Written by: Brian Setzer
Song Cover: Stray Cats
Note:  Keep this in a monospace font, like courier, than the 
chords and lyrics will be correctly aligned.
nc means no chord

LOOK AT THAT CADILLAC -  Hot Grubb 
Intro
------------------------------------------------------------------------------------------------
------------------------------------------------------------------------------------------------
------------------------------------------------------------------------------------------------
----------------------1--2-------2-1-2--2-1-2--2-1-2-----2-1-2--2-1-2--2-1-2---5-4-2------------
---2--1--2--3--4------------------------------------------------------------------------4-2-----
------------------------------------------------------------------------------------------------

----------------------------------------------------------------------------
----------------------------------------------------------------------------
----------------------------------------------------------------------------
---1--2-------2-1-2--2-1-2--2-1-2-----2-1-2--2-1-2--2-1-2---5-4-2-----------
---------------------------------------------------------------------4-2----
----------------------------------------------------------------------------


--------------------------------------
--------------------------------------
--------------------------------------
--------------------------------------
----------0--1--2--0------------------
--0--4-----------------4--2--0--------

 E
When I wake up in the morning, brush my teeth and comb my hair
        A                                                    E
When I wake up in the morning, I brush my teeth and comb my hair
       B7                                                     E
Well there's a big black cadillac parked in the street over there
E
Well it's the finest old car, that ever rolled of the line
 A                                        E
Any other car would just be wasting your time
      B7                                     E
Well one fine day I'm gonna make a cadillac mine


I gotta get a cadillac
-----------------------------
-----------------------------
-----------------------------
---------------0-1--2--------
----2--3--4------------------
-----------------------------

    E                                   E                             A
(Look at that cadillac, look at that. Look at that cadillac, look at that)
   A                            E                      A   E  nc
Rolling down the aven-ue, I'm gonna get me a cadillac too     If it's the last thing I do

--------------------------------------
--------------------------------------
--------------------------------------
--------------------------------------
----------0--1--2--0------------------
--0--4-----------------4--2--0--------



E
I got me a job, down at the liquor store
     A                                   E                                               
Yeah I got me a job down at the liquor store
     B7                                      E
Well I ain't lazy but I don't wanna work no more
E                                    
When I get my money I put it straight in the bank
      A                                     E
Yeah when I get paid, I put it right in my bank 
         B7                                  E
Well I'm halfway to get my big old cadillac tank


    I got-ta get a ca-dillac
----------------------------------------
----------------------------------------
----------------------------------------
--------------0--1--2-------------------
----2--3--4-----------------------------
----------------------------------------
    E                                  E                               A
   E                                   E                             A
(Look at that cadillac, look at that. Look at that cadillac, look at that)
   A                            E                      A     
Rolling down the aven-ue, I'm gonna get me a cadillac too     
                                           E nc                  
--------------------------------------       If it's the last thing I do
--------------------------------------
--------------------------------------
--------------------------------------
----------0--1--2--0------------------
--0--4-----------------4--2--0--------         

lead 
E                                                                           
Well sittin' in a bar knockin' 'em back Up pulls a big black cadillac
A                     E        B7                          E                   
Out steps a kitten, stand back cats Away I go in my cadil-lac
   E                                                                   A
(Look at that cadillac, look at that. Look at that cadillac, look at that)
A                          E              A            E
Rolling down the aven-ue, I'm gonna get me a cadillac too
B7                       E
If it's the last thing I do


    I got-ta get a ca-(dillac)
------------------------------------------
------------------------------------------
------------------------------------------
--------------0--1--2-------------------
----2--3--4------------------------------
-------------------------------------------
   E                                   E                             A
(Look at that cadillac, look at that. Look at that cadillac, look at that)
   A                            E                      A     
Rolling down the aven-ue, I'm gonna get me a cadillac too     
                                           E nc                  
--------------------------------------       If it's the last thing I do
--------------------------------------
--------------------------------------
--------------------------------------
----------0--1--2--0------------------
--0--4-----------------4--2--0--------         
                                              


TCMA relocator Page