#------------------------PLEASE NOTE---------------------------------#
#This file is the author's own work and represents their interpretation 
of the song. You may only use this file for private study, 
scholarship, or research. 
DO NOT STEAL MY WORK BY REMOVING MY NAME AND POSTING IT ONLINE AS YOURS !!!     
#---------------------------------------------------------------------#
TABBY CAT MUSIC ARCHIVES 
(If not found, highlight and copy the following address and put it directly into 
your browser address box. https://sites.google.com/site/tcmarelocatorpage/home)
********************************************************************************
Transcribed by: asf0@comcast.net  Alice Franceschini
Date:   June 29, 1997
Subject: Cry   by  Crystal Gayle
Album: The Best of Crystal Gayle
Written by: Churchill Kohlman

            CRY                   Crystal Gayle

Intro. It's an A chord fanned out and an added A at the 5th fret.   
-------------0----5---
----------2-----------
--------2-------------
-----2----------------
--0-------------------
----------------------


D#                                      G7   
If your sweetheart sends a letter of goodbye
         Cm                                  Gm
It's no secret  -  you'll feel better if you cry
       G#          G#m                    D#                Cm    
When waking from a bad dream don't you sometimes think it's real
          Fm                           A#
But it's only false emotions that you feel
           D#                               G7
If your heartache seems to hang around too long
          Cm                                 Gm  
And your blues keep getting bluer with each song
G#                G#m            D#             Gm
Remember sunshine can be found behind a cloudy sky
             Fm           A#        D#
So let your hair down and go on and cry
            D#                              G7 
If your heartache seems to hang around too long
          Cm                                 Gm
And your blues keep getting bluer with each song
 G#               G#m           D#             Gm
Remember sunshine can be found behind a cloudy sky
            Fm            A#        A#m     C9
So let your hair down and go on and cry
            Fm            A#         D#
So let your hair down and go on and cry

lead
G#                G#m            D#            Gm 
Remember sunshine can be found behind a cloudy sky
            Fm            A#        A#m   C9
So let your hair down and go on and cry
             Fm           A#         D#
So let your hair down and go on and cry


Here's some bass lines 

D#

------------------------------------
-----5--8----5--8-----5--8----5--8----
--6----------------6----------------
------------------------------------

G7

--------------------------------------
-------------------------------------
----2--5----2--5-----2--5----2-5-----
-3----------------3-------------------

Cm

---------------------------------
----1--5----1--5-----1--5---1-5--
--3---------------3---------------
----------------------------------

Gm

--------------------------------
---------------------5--4--3-------
-----1--5---1--5--------------------
--3---------------3---------------

G#               G#m                 D#                    Cm
waking from a    bad dream don't you sometimes think it's real
----------------------------------------------------------------------
---------------------------------------5--8--5--8---------1--5--1-5----
-----3--6--3-6-------2--6--2--6-----6------------------3--------------
--4---------------4--------------------------------------------------

Fm                   A#

-------------------------------
-------------------------------
-------2-----2-------------------
-1--4-----4------------66666666---


TCMA relocator Page