#------------------------PLEASE NOTE---------------------------------#
#This file is the author's own work and represents their interpretation 
of the song. You may only use this file for private study, 
scholarship, or research. 
DO NOT STEAL MY WORK BY REMOVING MY NAME AND POSTING IT ONLINE AS YOURS !!!     
#---------------------------------------------------------------------#
TABBY CAT MUSIC ARCHIVES 
(If not found, highlight and copy the following address and put it directly into 
your browser address box. https://sites.google.com/site/tcmarelocatorpage/home)
********************************************************************************
Transcribed by: asf0@comcast.net  Alice Franceschini
Date:  September 9, 1997
Subject:  Heart Of Glass  by Blondie
Album: The Best of Blondie
Written by: D. Harry/C. Stein


    HEART OF GLASS       Blondie

Intro riff   > = slide

---------------------------------------------------------
---------------------------------------------------------
---------------------------------------------------------
--2--2--2--0-------2--2--2--4>6--------------------------
----------------2----------------------------------------
---------------------------------------------------------

------------------------------2---4-------
-5--5--5--2-------5--5--5-----------------
---------------4--------------------------
------------------------------------------
------------------------------------------
------------------------------------------



E                               C#m                                                            
Once I was in love and it was a gas  
                                       E
Soon turned found out had a heart of  glass
E                                     C#m  C#    
Seemed like the real thing but it's a lie-ie-ie  
C#m                          E 
Due to mistrusts lost love behind 
 E                             C#m 
Once I was in love and it was devine  
                                E
Soon found out I was losing my mind
E                                       C#m       C#     
Seemed like the real thing but I was so blind-ind-ind    
C#m                               E
Put your mistrust, love's gone behind 

RUN UP
----------------------------
----------------------------
-------------1--2----------
--2--3--4-----------------
----------------------------
----------------------------

A                                               E
In between, when I'm finally pleasin' and I'm feeling fine
                                  A
Love is so confusing there's no peace of mind
A                                  F#                              B
In my fear, I'm losing you   It's just no good you tease me like a girl. 
 E                             C#m                                                
Once I was in love and it was a gas  
                                 E
Soon turned out had a heart of glass
E                                    C#m       C#   
Seemed like the real thing but it was blind-ind-ind 
C#m                           E
Due to mistrust love's far behind
RUN UP see above
A                                                E
Lost inside a troubled world of confusion and I cannot hide
E                                       A
I'm the one you're using  Please don't push me aside
                        E               A E A F# B
We could have made it groovy       lead dad ad dad
        F#                                 B     E
I'm riding high  I know I'd soon do it or die   ooooh oooooh oh oh
E                               C#m  
Once I was in love and it was a gas  
                                     E
Soon turned out to be a pain in the ass.
E                                       C#m    C#                                             
Seemed like the real thing but it was a lie-ie-ie 
C#m                               E
Due to mistrusts love's gone far behind



--------------------------
--------------------------
--------------------------
--2--4--5--6------------
--------------------------
--------------------------




TCMA relocator Page