#------------------------PLEASE NOTE---------------------------------#
#This file is the author's own work and represents their interpretation 
of the song. You may only use this file for private study, 
scholarship, or research. 
DO NOT STEAL MY WORK BY REMOVING MY NAME AND POSTING IT ONLINE AS YOURS !!!     
#---------------------------------------------------------------------#
TABBY CAT MUSIC ARCHIVES 
(If not found, highlight and copy the following address and put it directly into 
your browser address box. https://sites.google.com/site/tcmarelocatorpage/home)
********************************************************************************
Transcribed by: asf0@comcast.net  Alice Franceschini
Date: June 29, 1997
Subject: I'll do it all over again   by  Crystal Gayle
Album: "Crystal" 
Written:  B. McDiff - W. Holyfield

    I'LL DO IT ALL OVER AGAIN     Crystal Gayle

Intro notes    
                       
--2--3-5--5--2--5--7--5--2--0-------------------
-------------------------------3-3-3-0----------
---------------------------------------2--------
------------------------------------------------
-----------------------------------------------
-----------------------------------------------

--2--3--5---5--2--5--7--5--2--0---------------0------------------
--------------------------------3--0--3--2--3----3--3-3--2--0-0-----
--------------------------------------------------------------2---
-------------------------------------------------------------------
------------------------------------------------------------------
------------------------------------------------------------------


            D             A       G                     A
1.) Was I right?  Was I wrong? A little too weak or a little too strong?
        D           A    G                       A
Was it him?  Was it me?  Oh I guess I'll never know.
            D               A      G                      A
Well you're up then you're down Oh but the world keeps turning around
           D        A        G       A      D
Ain't it hard to find  something to hang on to

D\D means to use a D note as the bass guitar string
D\Db means to replace that D note now with Db
D\B  means to replace Db with B note etc.
CHORUS:  
        D\D   D\Db          D\B       D\A         G  G\Gb         Bm     A     
But I know         that my heart will mend and I know   that I'll smile again
         D\D   D\Db        D\B       D\A      G          A     D     
I'll get back        on my feet and then I'll do it all over again.
               D             A        G                         A


2.) Some you lose  some you win They say that's the way it's always been
                D            A     G                     A
But you still laugh then you cry  Oh but I guess that's life
         D            A     G                          A            
So you live and you learn  Never looking back at the bridges you burn
          D         A      G                  A    D
And you change  somehow Oh I'm a little bit wiser now


go to chorus, chorus, repeat last line of chorus, Instrumental ending.



TCMA relocator Page