#------------------------PLEASE NOTE---------------------------------#
#This file is the author's own work and represents their interpretation 
of the song. You may only use this file for private study, 
scholarship, or research. 
DO NOT STEAL MY WORK BY REMOVING MY NAME AND POSTING IT ONLINE AS YOURS !!!     
#---------------------------------------------------------------------#
TABBY CAT MUSIC ARCHIVES 
(If not found, highlight and copy the following address and put it directly into 
your browser address box. https://sites.google.com/site/tcmarelocatorpage/home)
********************************************************************************
Transcribed by: asf0@comcast.net  Alice Franceschini
Date:  July 10, 1997
Subject:  Me against the night by Crystal Gayle
Album: Cage the Songbird
Written by: Pam Rose, Mary Ann Kennedy, Pat Bunch

    ME AGAINST THE NIGHT         Crystal Gayle

Intro 
                                                D
--2-2-2----5---3-2------------------------------2-------
-------------------------5-----------------0--3-----------
--------------------------------2--2----2-----------------
-----------------------------------------------------------
----------------------------------------------------------
----------------------------------------------------------
                                                A
--2-2-2----5---3-2------------------------------0-------
-------------------------5-----------------0--3-----------
--------------------------------2--2----2-----------------
-----------------------------------------------------------
----------------------------------------------------------
----------------------------------------------------------

 

A      D                   A    G       D         A
Moon please don't shine on me  Help me hide his memory
 G           D                  A   Bm                             D  A  G
Stars don't light the midnight sky cause you don't want to see me cry
 A          D                A              G          D             A
Heart don't let me think of him  Lock your door don't let his memory in
   G        D                 A       Bm                           D  A  G
I feel the cold wind blowin through A love like this was meant for two

Chorus:
        A                                                  G     D
But its me against the ight  and I'm afraid it's a losing fight  
      A                          Bm  Em               A            
I see you in every shadow of the room    You're not here to hold me tight
                              G  D                A         
I can't wait til the morning light   There's  no way to win 
          Bm               A
When it's me against the night

****play slowly*****play quickly*****
---------0--4--5---------10--9--7--5--4--5---------
---2---------------------------------------------------
-------------------------------------------------------
--------------------------------------------------------
-------------------------------------------------------
------------------------------------------------------

  A        D               A   G          D              A
Gone you said you'd never be  And all of you belonged to me
 G       D                    A     Bm                   D    A  G
burning tears fall down like rain longing for your love again

Chorus
Ending:
G                A
Me against the night



TCMA relocator Page