#------------------------PLEASE NOTE---------------------------------#
#This file is the author's own work and represents their interpretation 
of the song. You may only use this file for private study, 
scholarship, or research. 
DO NOT STEAL MY WORK BY REMOVING MY NAME AND POSTING IT ONLINE AS YOURS !!!     
#---------------------------------------------------------------------#
TABBY CAT MUSIC ARCHIVES 
(If not found, highlight and copy the following address and put it directly into 
your browser address box. https://sites.google.com/site/tcmarelocatorpage/home)
********************************************************************************
Transcribed by: asf0@comcast.net  Alice Franceschini
Date:  March 19, 1998
Misc Listing

      PIPELINE   The Chantays
 
riff       Em                 Am 
--------------------------------------------------------------
--------------------------------------------------------------
--------------------------------------------------------------
--------------------------------------------------------------
---------------2-----2----------------------------------------
-12->slide>-0-----5-------------------------------------------

Em
--------------------------------------------------------------
--------------------------------------------------------------
--------------------------------------------------------------
----0--2--0--2--4--2--0--2--4--4--2--0--2--0------------------
-2--------------------------------------------2---------------
--------------------------------------------------------------

Am                                            Em
--------------------------------------------------------------
--------------------------------------------------------------
-----0--2--0--2--4--2--0--2--4--4--2--0--2--0-----------------
--2--------------------------------------------2--------------
--------------------------------------------------------------
--------------------------------------------------------------
Bm      C     Bm     C    Bm   Am
------------------------------------------------------------------
------------------------------------------------------------------
------------------------------------------------------------------
-----------------0----------------------0--------------------------
-2-2-2-2-2--3-3-----3----2-2-2-2-2-3-3----3---2-2-2-2--0--------
----------------------------------------------------------3--1--0-

------------8-----------8-----8--12--10--8----------------
----------------10--10----10------------------------------
------------------------------------------------------------------
------------------------------------------------------------------
------------------------------------------------------------------
--2---0--------------------------------------------------------------

-7--------7-----7--10--8--7--5--------5-----5--8--6-5--------5-5--
----8--8-----8------------------6--6-----6-------------6--6------
------------------------------------------------------------------
------------------------------------------------------------------
------------------------------------------------------------------
-------------------------------------------------------------------

------------------5------------------------------------------------
--8--6--5------5-----8--6--5-------------------------------------
------------------------------------------------------------------
------------------------------------------------------------------
------------------------------------------------------------------
-------------------------------------------------------------------

Em Am  Em  Bm C Bm C Bm Am     Am G F G Am G F E 




TCMA relocator Page