#------------------------PLEASE NOTE---------------------------------#
#This file is the author's own work and represents their interpretation 
of the song. You may only use this file for private study, 
scholarship, or research. 
DO NOT STEAL MY WORK BY REMOVING MY NAME AND POSTING IT ONLINE AS YOURS !!!     
#---------------------------------------------------------------------#
TABBY CAT MUSIC ARCHIVES 
(If not found, highlight and copy the following address and put it directly into 
your browser address box. https://sites.google.com/site/tcmarelocatorpage/home)
********************************************************************************
Transcribed by: asf0@comcast.net  Alice Franceschini
Date:  September 9, 1997 Realign: February 7, 2003 Revised July 30, 2003
Subject: Word Of Love by The Mamas and the Papas
Album:
Written by:

            WORDS OF LOVE      Mamas and the Papas
                            

Intro chords: E   B/D#  C#m  Ab  Eb   (listen to recording for timing)
Intro notes:
----------------------4----------------------------
----------4----5--7------5--7--4----6--5--6--8-----
-4--6----------------------------------------------
---------------------------------------------------
---------------------------------------------------
---------------------------------------------------

---------------------------------------------------
---5---5-------------8-8-6-6-4-4-------------------
6----6----6---6---8------------------6---5---------
---------------------------------------------------
---------------------------------------------------
---------------------------------------------------

	

            Ab                Gb                        B            Bb      Eb                                       
	1.) Words of love, so soft and tender     Won't win a girl's heart anymore   
	Ab                   Gb                     B                        Bb
	If you love her then you must send her  Somewhere where she's never been before
	Abm                   Gb                  B                      Bb    2.) A     
	Worn out phrases and longing gazes  Won't get you where you wanna go   1.) "no".
	 Ab             Gb                     E        Eb
	Words of love, soft and tender  Won't win her - er
 Bridge:
	Fm                 Bbm    Gb                                Eb 
	You oughta know by now  You oughta know, you oughta know by now
	 Ab            Gb                      E  Eb       Ab
	Words of love, soft and tender  Won't win her any more
             lead, bridge, repeat 1.) skip 2.) and go to ending


	Ending:
         Ab             Gb               E             Eb  E      Eb   Ab
	Words of love, soft and tender  Won't win her any more   any more


TCMA relocator Page