#------------------------PLEASE NOTE---------------------------------#
#This file is the author's own work and represents their interpretation 
of the song. You may only use this file for private study, 
scholarship, or research. 
DO NOT STEAL MY WORK BY REMOVING MY NAME AND POSTING IT ONLINE AS YOURS !!!     
#---------------------------------------------------------------------#
TABBY CAT MUSIC ARCHIVES 
(If not found, highlight and copy the following address and put it directly into 
your browser address box. https://sites.google.com/site/tcmarelocatorpage/home)
********************************************************************************
Transcribed by: asf0@comcast.net  Alice Franceschini
Date:  March 7, 2000
Album:
Written by:
Note:  I don't know if this is the key the recording is in
but here's how I play this tune.  Lyrics and chords, then
the tablature. Keep on pickin'

     Walk Right In                   The Roof Tops Singers  1963

 C                        A     D7            G         C
Walk right in set right down  Daddy let your mind roll on
C                        A     D7
Walk right in set right down  Daddy let your mind roll on
C
Everybody's talking about a new way of walking 
D
Do you wanna lose your mind?
C                         A    D7            G        C
Walk right in set right down Daddy let your mind roll on


C                        A    D7              G        C 
Walk right in set right down baby, let your hair hang down.
C                        A    D7
Walk right in set right down baby, let your hair hang down.  
C
Everybody's talking about a new way of walking 
D
Do you wanna lose your mind?
C                        A     D7            G         C
Walk right in set right down  Daddy let your mind roll on


C                A D7 G C
--------------------------------
--------------------------------
--------------------------------
-------------------0------------
---0-2-3---3-2-1-0------3-------
-3-------3------------3---------

C                A D7
-----------------------------------------
-----------------------------------------
-----------------------------------------
-------------------0-0-0-0-0-0-----------
---0-2-3---3-2-1-0---------------3-2-0---
-3-------3-------------------------------


C                      D
---------------------------------------------
---------------------------------------------
---------------------------------------------
-----------------------0-0-0-0-0-0-----------
---0-2-3-0---0-2-3-0------------------3-2-0--
-3---------3---------3-----------------------



C                A D7 G C
--------------------------------
--------------------------------
--------------------------------
-------------------0------------
---0-2-3---3-2-1-0------3-------
-3-------3------------3---------




TCMA relocator Page