#------------------------PLEASE NOTE---------------------------------#
#This file is the author's own work and represents their interpretation 
of the song. You may only use this file for private study, 
scholarship, or research. 
DO NOT STEAL MY WORK BY REMOVING MY NAME AND POSTING IT ONLINE AS YOURS !!!     
#---------------------------------------------------------------------#
TABBY CAT MUSIC ARCHIVES 
(If not found, highlight and copy the following address and put it directly into 
your browser address box. https://sites.google.com/site/tcmarelocatorpage/home)
********************************************************************************
Transcribed by: asf0@comcast.net  Alice Franceschini

Date: September 12, 2001  Revised: July 25, 2019
Album: Part 2
Written by: Brad Paisley, Charles Christopher Dubois and John Kelley Lovelace


   WRAPPED AROUND          Brad Paisley

   A         D          E           A 
Everyday I clock out  Head straight to her house
A            D
We cuddle up on the couch 
*E                                    
But it always ends the same old way
*E                                      
Driving home and it's incredibly late
*E                   E7
Something's gotta change

CHORUS:
                   D
Cause I've been wrapped around her finger
            A
Since the first time we went out
E                            D            A
Every day Every night she's all I think about

--------------
--------------
--------------
-----------0--
--0--2--4-----
--------------
    D                       A                  D
I need that girl beside me when the lights go out
n.c.                  A                 E                     A   1.) E
I think it's time to put a ring on the finger I'm wrapped a-round 2.) A D A A E 
                    n.c.          A                 E                     A   
                 3.)It's time to put a ring on the finger I'm wrapped a-round 




  A                D               E                    A    
Went to the bank took out a loan Went and bought the perfect stone
A                  D
Called up her dad on the phone
*E                                  
Taking him to dinner Sunday night
*E                                     
I've never been so nervous in my life
*E                   E7
I want to do this right     go to chorus using 2.)

go to chorus, lead,
*E                              
Yes sir I love her very much
*E                                    
I know it's only been seven months
*E             E7
That's long enough. go to chorus using 3.)


Ok the following is an incomplete tabbing of the lead, there's bass parts too.
THIS IS A WORK IN PROGRESS.
Note:   s7-0 means to start on the 7th fret and slide down to an open A string. 
p2 means pull off  n.c. means play no chord or open strings    The *E in the lyrics 
is my way to connect the tab to the area in the song where it gets played.
Intro notes Play 4 times except the s7-0

Guitar plays this.  Play along with the recording for timing.
---------------------------------------------
---------------------------------------------
---------------------------------------------
---------------------------------------------
-s7-0----------------------------------------
---------4-5-5-5--4-5-5-5-----p2-0--p2-0-----

This is the bass during the verse
A               D         E           A
--------------------------------------------------
--------------------------------------------------
--------------------------------------------------
-----------------4--7--4----6--9--6---------------
----4--7--4----5----------7-------------4--7--4---
-5-----------------------------------5------------


A               D               *E               

------------------------------------------------------
------------------------------------------------------
-----------------4--7--4-------------------------------
----4--7--4----5---------------------------------------
-5-------------------------------7-4-5-4-5-4-5-4-------
---------------------------------------------------0---


   *E                                E7         CHORUS
  ---------------------------------------------------------------------
  ---------------------------------------------------------------------
  ---------------------------------------------------------------------
  -------------------------------------------------4-7--4-----4-7-4----
  --7-4-5-4-5-4-5-4-------7-7-4-5-4-5-7-7-4-6-7---5--------5----------
  --------------------0----------------------------------------------------


CHORUS

A                       D                    E           
----------------------------------------------------------------------
----------------------------------------------------------------------
----------------------------------------------------------------------
---------------------------4--7--4----4--7-4---6--9--6------6--9--6---
----4--7--4----4--7--4---5----------5--------7-----------7------------
-5-----------5--------------------------------------------------------

RUN UP
-----------------
-----------------
-----------------
-----------------
-----------------
--5-2-4--5-------


This is where I stopped tabbing and it is incomplete as of September 6, 2019.
 



TCMA relocator Page