#------------------------PLEASE NOTE---------------------------------#
#This file is the author's own work and represents their interpretation 
of the song. You may only use this file for private study, 
scholarship, or research. 
DO NOT STEAL MY WORK BY REMOVING MY NAME AND POSTING IT ONLINE AS YOURS !!!     
#---------------------------------------------------------------------#
TABBY CAT MUSIC ARCHIVES 
(If not found, highlight and copy the following address and put it directly into 
your browser address box. https://sites.google.com/site/tcmarelocatorpage/home)
********************************************************************************
Transcribed by: asf0@comcast.net  Alice Franceschini
Date: November 2, 2002   
Album:
Written by:

           CHROME      Trace Adkins

Intro                                       A D E 
-2-SLIDE-10-pause--6-8-10-8-6-3-7-5-2-1-0---------------------
--------------------------------------------------------------
----------------------------------------------------------1-2-
--------------------------------------------------0-1-2-4-----
------------------------------------------------4-------------
--------------------------------------------------------------
A D E 
--------------------------
--------------------------
-------1-2-2-2---1-2-2-2--
--------------------------
--------------------------
--------------------------

A                D                  E
Chrome. She can see herself In the shiny grill and the wire wheels
            A           D                         E            
of a red Chevelle with four on the floor and the top down
  A       D                 E
Chrome. zippin' by on an Electra Glide with dual tail pipes
       A                   D                  E    
Doin' one oh five in the broad daylight on a two-lane headin' outta town

CHORUS:

A    E   D    G   Bm  Bm   D   A 
For-get Pink and pur-ple pais-leys
A    E   D   G   Bm  Bm   D   A 
Lit-tle mel-low yel-low dais-ies
A                G     A   E   D    D
Ain't no pot of go--ld in her rain-bow
G    G G G    G G  G      A          Intro
Her favorite color is ..Chrome


   A                 D                   E 
Chrome. She got her leg up high on the bumper of my big black Mack truck
A                    D                          E
With a smoke stack pointed towards the sky And mud flaps you know the kind
  A             D                   E
Chrome. I said hey little girl you sure look nice Do you wanna ride 
A             D                       E  
I won't bite she climbs inside Says hell no, I want to drive

To chorus, to interlude




INTERLUDE:
Interlude riff. Play twice.
(Lick with chords. Percussion sounds on muted guitar strings.)
A  A  D D       D      
-------------------
-------------------
-------------------
------0-0-pause 0--
-0-4---------------
-------------------  1.)It's chrome alright 2.)Shiny nice polished
Bass up notes. Chords: A E F#m Gm E     hold E a long time
----------------------------
--------------------0-2-0---
---------------1-2----------
------0-1-2-4---------------
-0-4------------------------
---------------------------- 1.)Chrome 2.)Chrome

A    E   D    G   Bm  Bm   D   A 
For-get Pink and pur-ple pais-leys
B   F#m  E    A  C#m C#m   E   B
For-get Pink and pur-ple pais-leys
B   F#m  E   A  C#m C#m   E   B 
Lit-tle mel-low yel-low dais-ies
B                A       B F#   E    E    
Ain't no pot of go--ld  in her rain-bow
 A   A A A    A A   A   E       
Her favorite color is Chrome
 E                      B
Her favorite color is chrome
E                       B
That girl is all about chrome
E                B     E    B  
She sure loves chrome          chrome

  

TCMA relocator Page