#
#------------------------PLEASE NOTE---------------------------------#
#This file is the author's own work and represents their interpretation 
of the song. You may only use this file for private study, 
scholarship, or research. 
DO NOT STEAL MY WORK BY REMOVING MY NAME AND POSTING IT ONLINE AS YOURS !!!     
#---------------------------------------------------------------------#
TABBY CAT MUSIC ARCHIVES 
(If not found, highlight and copy the following address and put it directly into 
your browser address box. https://sites.google.com/site/tcmarelocatorpage/home)
********************************************************************************
Transcribed by: asf0@comcast.net  Alice Franceschini
Date: July 25, 2003   
Album:
Written by:
Note: This song is great to practice lead on. n.c. means play no chord

    HALF A HEART TATTOO   Jennifer Hanson

------------------------------------------------------------------------
-7-5-4-3--------------------------------7-5-4-3-------------------------
---------4-2-1-----------------------------------4-2-1------------------
----------------4-2-1-----------------------------------4-2-1-----------
----------------------4-2-----------2--------------------------4-2-2-2--
------------------------------2-5-2-------------------------------------
           B
She was touching up her make up I was standing next in line
Ab hammer on A 3x resolve on B
Ab=001110  A=002220  bar the first fret with index finger
and use another finger to hammer on the second fret for A.  Play it fast.

B
Couldn't help but notice neath those powder room lights
--5-4-2----- 
--------5---
------------
------------
------------
------------
            E                          
There was china red outlined in black on the left side of her shoulder
          B
In plain view
-7-2---------------------2---------------------
-----3---------------------3-------------------
--------4--1-h2-1-h2-4-------4---1-h2-1-h2-4---  h means to hammor on
-----------------------------------------------
-----------------------------------------------
-----------------------------------------------
E                     n.c.                               B                    
I just had to ask hey what's with that half a heart tat-too
---------------------------------
-7-5-4-3-------------------------
----------4-2-1------------------
-----------------4-2-1-----------
------------------------4-2------
---------------------------------
             B 
She glanced at me through the mirror and just started to laugh
B     
She said I know this looks funny but there is another half
-5-5-4-4-2-2--------------------
-------------5-------------------
---------------------------------
---------------------------------
---------------------------------
---------------------------------
           E   
And it's china red outlined in black on the right side of his shoulder
        B 
Last I knew
---------------------------------
-------3---3-3---------3--b3-----
-----2---4-----4-----2-------4--     b means to bend
---4---------------4-------------
---------------------------------
---------------------------------
         E                                                    B
Yeah somewhere out there is a match to this half a heart tat-too
-7---
-----
-----
-----
-----
-----
-----
A         D                   B
Well last I heard some red head caught his eye in New Orleans
------------------------------------
----------------3-------------------
---------2-3-4----4-3-2-------------
--2-3-4------------------4-3-2------   play this very fast.
--------------------------------2---
------------------------------------
      A                               B
and before it was a blonde in Baton Rouge
   A                         D                 B
I know there are at least a dozen gals out sporting one of these
------------------------------------
----------------3-------------------
---------2-3-4----4-3-2-------------
--2-3-4------------------4-3-2------   play this very fast.
--------------------------------2---
------------------------------------
   A                        F#             A           E                B 
Thinking they are the only fool that he's left with a half a heart tat-too
---------------------------------
--7-5-4-3------------------------
-----------4-2-1-----------------
------------------4-2-1----------
-------------------------4-2-----
---------------------------------
       B
Well girl you got my sympathy I knew a guy like that
-------------
-------3-----
----2----4---
--4----------
-------------
-------------
B
I said Well you ain't gonna believe this then I pulled my jacket back
-5-5-4-4-2-2------
--------------5---
------------------
------------------
------------------
------------------
            E
Yeah it's china red outlined in black on the left side of my shoulder
              B
Still fairly new yeah
---------------------------------
---------------------------------
---------b3------------b3--------
-4-4-2-4----4--4-4-2-4----4------   b means bend the string
---------------------------------
---------------------------------
    E                                                            B   
I guess there's just a whole mess of us with a half a heart tat-too
-7-7-7-7-7---
-------------
-------------
-------------
-------------
-------------
           A           D                        B
Well the last i heard he'd moved in with some dancer from L.A.
-----------------------------------
-----------------3-----------------
----------2-3-4----4-3-2-----------
---2-3-4-----------------4-3-2-----
--------------------------------2--
-----------------------------------
 A                                        B
But I'm bettin that won't last a week or two
---------------------------------
-------3--------------------------
----2-----4------------------------
--4-------------------------------
---------------------------------
---------------------------------
           A              D                  B 
He loves long enough to leave his mark and then he's on his way
-----------------------------------
-----------------3-----------------
----------2-3-4----4-3-2-----------
---2-3-4-----------------4-3-2-----
--------------------------------2--
-----------------------------------
 A                              F#
He's so good they never have a clue 
              A                            B 
til they're stuck with a half a heart tat-too
-----------------
--b7-5---5-------
-------7---7-4---
-----------------
-----------------
-----------------
      A                                       F#  
So ladies make sure that guy standing next to you-o-ou
-------------------7------------
----------------4---------------
---------3-4-5------------------   play very fast
--2-3-4-------------------------
--------------------------------
--------------------------------
        E                          B
Ain't wearing no half a heart tat-too
-7-5-4-3----------------------
----------4-2-1---------------
-----------------4-2-1--------
------------------------4-2---
------------------------------
------------------------------

 E                B   E                B
Half a heart tat-too Half a heart tat-too  
-7-5-4-3----------------------
----------4-2-1---------------
-----------------4-2-1--------
------------------------4-2---
------------------------------
------------------------------
Vamp on B for ending and jam to the end of tune.
   na na anana ananananan aaaaaa


TCMA relocator Page