Date: December 5, 2005   
Album: Moods & Moments
Written by:  Bruce Burch Ė Steve dean
Note:  Yes this is the same song that was featured at the end of
the  T.V. show Roseanne. This song has a lot of Lay Down Sally
elements to it.  Vamp means to continue playing on one chord or pattern
of chords.
For those who want a karaoke version, it's call "I Know You So" for some reason and I bought it
and it is the same song.  So just heads up for you.


              I KNOW SO   Wayne Newton


INTRO   h=hammer on
        G  
-----------
--------0--
--0-h2-----
-----------
-----------
-----------

Lick in the intro  B=Bend first half played very fast.
Listen to the recording for timing.

---------------3---6--3--------       
-0------------------------7b---
---3-2-0-h2-3------------------
-------------------------------
-------------------------------
-------------------------------

G
Some things you canít be sure about in life
G
The future ainít spelled out in black and white
     C   
It keeps you guessing 
                                  G
Keeps you asking questions every-day

Yeah Lifeís that way
     D      
But baby when you ask me if I need you 
          G 
I donít think so - I know so


**
     G
The way you hold me, the love you show me, 
                                        C
the way you make me feel I feel like dancing 
                   G 
Dancing all night long baby in your arms
            G
Well Iíll prove to you with a heart thatís true
                                      C 
You never have to wonder if I do Ė I do girl
                 G
Donít you ever doubt what Iím talking about
       D                        
Cause baby when you ask me if I love you 
          G
I donít think so Ė 1.) I know so
                   2.) Baby I know so    go to ending

Lead  G C G D G



        G
Well, honey close your eyes and rest assured

Tomorrow when you wake up Iíll be yours
      C 
Hey ainít no denying 
                             G 
Iíll still be lying next to you  next to you
       D                           
Cause baby when you ask me if I want you 
          G
I donít think so  - Well I know so

Repeat  **  using 2.)

ENDING:
       D
Cause baby when you ask me if I love you 
           G
I donít  think so, baby I know so

Vamp on G for ending.

I feel like dancing in your arms  
Think so baby I know so
Feel like dancing baby in your arms 
Iíll be lying next to you
I donít think so baby I know so 
Baby Iím thinking  babe
I donít think so baby I know so

Guitar vamp (basic idea)
--------------6------------------------
-8-6-8-6-8-6----8---8-6-8-6-8-6-8-8-8--
---------------------------------------
---------------------------------------
---------------------------------------
---------------------------------------

Guitar lick (basic idea)
-----------------------------------------
-----------------------------------------
-----------------------------------------
----2-3-2------2-3-5-----2-3-2-3-3-2-5---
--5-------5-5----------5-----------------
-----------------------------------------