#------------------------PLEASE NOTE---------------------------------#
#This file is the author's own work and represents their interpretation 
of the song. You may only use this file for private study, 
scholarship, or research. 
DO NOT STEAL MY WORK BY REMOVING MY NAME AND POSTING IT ONLINE AS YOURS !!!     
#---------------------------------------------------------------------#
TABBY CAT MUSIC ARCHIVES 
(If not found, highlight and copy the following address and put it directly into 
your browser address box. https://sites.google.com/site/tcmarelocatorpage/home)
********************************************************************************
Transcribed by: asf0@comcast.net  Alice Franceschini
Date: August 16, 2003   
Album:
Written by:
Note: N.C. means play no chord

       JUST SHOOT ME THEME SONG         Lauren Wood

E7 must be a full chord  022130  and not 020100
Listen to the recording for timing and rhythm of chords

INTRO                  
                  E7     this is played just before vocal
----------------       -----------
----------------       -----------
----------------       ----------- 
----------------       ----------- 
---------2-0----       --2-0------
-0-1-2-3-----0--       ------2----

E7
Life keeps bringing me back to you
-----------
----------- 
----------- 
--2-0------
------2----

Keeps brings me home
----------------------
----------------------
----------------------
----------------------
----------------------
-0-0-1-1-2-2-3--------

     G                   F#                   
It don't matter what I wanna do cause     
    written one octave higher than recording.
----------------------
----2-----------------
--4---4-0-------------
----------4-----------
----------------------
----------------------
N.C.                     F# F# F# F# F#
It's got a mind of it's own
               E7
----------------------
----------------------
----------------------
--4s5s4s5--0---2------
----------------------
----------------------
E7     
Life keeps bringing me back to you
----------------
----------------
----------------
----------------
--2-0-----------
-------0--------


justshootme.txt


TCMA relocator Page