#------------------------PLEASE NOTE---------------------------------#
#This file is the author's own work and represents their interpretation 
of the song. You may only use this file for private study, 
scholarship, or research. 
DO NOT STEAL MY WORK BY REMOVING MY NAME AND POSTING IT ONLINE AS YOURS !!!     
#---------------------------------------------------------------------#
TABBY CAT MUSIC ARCHIVES 
(If not found, highlight and copy the following address and put it directly into 
your browser address box. https://sites.google.com/site/tcmarelocatorpage/home)
********************************************************************************
Transcribed by: asf0@comcast.net  Alice Franceschini
Date:  July 26, 2004
Album:
Written by:


        MEN DON'T CHANGE   Amy Dalley

INTRO run off:  listen to recording for timing
-----------------------------
-----------------------------
-----------------------------
-----------------------------
--4-3-3-4-4----4-3-3-4-4-----
-----------------------------
INTRO:
---------------------------------------------------
---------------------------------------------------
---------------------------------------------------
-------------3-4-4-3-4-4----3-3-4-3----------------
-4-3-3-4-4---------------------------6----4-3------
------------------------------------------------4--

----------------------------------------
----------------------------------------
----------------------------------------
------------3-4-4-3-4-4----3-3-4-3------
-4-3-3-4-4--------------------------6---
----------------------------------------


          F#                  C# 
He was a bad boy and I was a good girl
          Bbm     G#             F#  
He needed me to smooth out the edges
              F#                           C# 
He'd get his drink on and flirt with the ladies
      Bbm               G#           F#
After two years of his crap I quit begging

-2-1---------
------4-2-1--
-------------
-------------
-------------
-------------

       F#              C#
I'm a magnet for the fixer upper man

 (try and get the walk down bass in your chords for the following)
   all bass notes are already in the chord form
     F#/f#     Bbm/f          Ab/d#          G#/g# 
If I know it's fire, why do I let it burn my hand
          
F#/f# = 24*4*322  *4* is f#
Bbm/f = 11*3*321  *3* is f
Ab/d# = x1*1*11x  *1* is d#     x = don't play,mute,no sound
G#/g# = 46*6*544  *6* is g#  this is a bar chord form of G#



CHORUS:
        C#            F#         C#             G# 
Cupid works for the devil Be suspicious if he cries
          C#             F#
You know sex is usually good
              C#            G# 
Yeah, but it ain't always right
   C#           F#           C#                  G#
Chocolate is a band-aid and no matter what they say
        (F#)                n.c.       (C#) git strum muted,play intro
Shoes **don't stretch and ** men don't change
** the following starts on **don't ends on and** (chords) optional
-2-1---------
------4-2-1--
-------------
-------------
-------------
-------------




           F#                C#
My friend Lisa, she loves a liar
Bbm         G#                F#  
She found a-bout his other girlfriends
            F#               C#
He makes excuses so she for-gives him
         Bbm                 G#               F# 
And she swears she's gonna leave if he screws up again
          F#            C#
But he's good looking, that's why she don't see
F#/f#         Bbm/f       Ab/d#             G#/g# 
He's got her exactly where he   wants her to be

to chorus, to lead, to chorus, to ending

ENDING: (backup singers only)
         C#            F#         C#             G#
(Cupid works for the devil Be suspicious if he cries)
Play the intro 
Sex is usually good Shoes don't stretch men don't change

guitar rythmn muted,ending run
ENDING RUN:
---------------------
-2-1-----------------
------3-1------------
-----------4-3-1-----
-----------------4---
---------------------




TCMA relocator Page


>