#------------------------PLEASE NOTE---------------------------------#
#This file is the author's own work and represents their interpretation 
of the song. You may only use this file for private study, 
scholarship, or research. 
DO NOT STEAL MY WORK BY REMOVING MY NAME AND POSTING IT ONLINE AS YOURS !!!     
#---------------------------------------------------------------------#
TABBY CAT MUSIC ARCHIVES 
(If not found, highlight and copy the following address and put it directly into 
your browser address box. https://sites.google.com/site/tcmarelocatorpage/home)
********************************************************************************
Transcribed by: asf0@comcast.net  Alice Franceschini
Date:  January 9, 2006
Album: Anywhere But Here
Written by: 
Note:

   MISS ME BABY          Chris Cagle

         C#            F#                 G#            C#
Miss me baby When you hear our favourite song  Miss me baby 
              F#             G#
And when you start to sing along
 (not chords notes)
Think about all the times that we danced
-------------------------------------------
--------2-------------1----------------------
------------------------------------3-------
-------------------------------------------
-------------------------------------------
-------------------------------------------
In moonlight to it all night long oh             G#
-------------------------------------------
-------------------------------------------
-------------------------------------------
---------1--4-------3----------------------
-------------------------------------------
-------------------------------------------
              C#   F#
Then miss me baby

              C#             F#                 G#               C#
And want me honey  Like you did the night you told me that you loved me
              F#      G#
We couldn't wait any-more

Left the keys in the door took my hand
-------------------------------------------
----------2-------------1------------------
------------------------------------3------
-------------------------------------------
-------------------------------------------
-------------------------------------------

Pulled me down on the kitchen floor
-------------------------------------------
-------------------------------------------
-------------------------------------------
-----------1---4-------3-------------------
-------------------------------------------
-------------------------------------------
                    G#            C# 
Yeah we were that crazy Then miss me baby


CHORUS
                  F#                         C#  
Cause when he's holding you Know that it's killing me
        D#m                           G#         
Let my memory be the reason girl That you can't sleep
           F#                                C#  
And every-time you feel his touch I pray to God it's not enough
                D#m                                      G#
And that I've touched your heart so deep Girl you can't shake me
              F#             G#               C#     C# F# C# F#           
1.3.)Cause I love you Yes I need you Miss me baby                3.)to ending
            F#             G#              
2.)Cause I love you Yes I love you Miss me baby   (to ending)


         C#             F#               G#           C#
Miss me baby Until you can't take it no more Miss me baby 
           F#               G#
Pack your bags and hit the door

I'm a man I was wrong for-give me Come back home
---------------------------------------------------
------2-----------1--------------------------------
---------------------------3-----------------------
----------------------------------------------4----
---------------------------------------------------
---------------------------------------------------
                                G#               C#
I'll be waiting    Right here waiting  Miss me baby
--------------
--------------
--------------
-3------------
--------------
--------------

to chorus using 2.)

ENDING
       F#                          G#        C#
Every-time you hear this song Miss me baby

 



TCMA relocator Page