#---------------------PLEASE NOTE-----------------------#
This file is the author's own work and represents their 
interpretation of the song.   You may only use this file 
for private study, scholarship, or research.
#--------------------------------------------------------#
Tabby Cat Music Archives
TabbyCatMusicArchives.com
mIRC chat room #countryguitartabs newnet channel
Transcribed by: Alice S. Franceschini
Date: July 21, 2003   
Album: Greatest Hits
Written by:
Note: This is Willie at his best.  He has made this song very much
his own and it's never good to copy another artist exactly.  Here
I hope I have given you enough information so that you can create
your very own rendition of this song.
Want to learn to play lead guitar, download my H	How To Lead Lead Guitar
from my web site.  Once there click on the How To Do menu button.
Page down, you'll soon find the link to it.
This is in Willie's recording key.  If you tune your guitar to standard
tuning, (use a quartz tuner) and you will be able to play right along
with Willie which is blast. 

      TILL I GAIN CONTROL AGAIN     Willie Nelson

C                  G7                         C
  Just like the sun    over the mountain top
 C          F
----------------
----------------
----------------
----------------
-3-1-0----------
--------3-2-1---


F                              C
  you know I'll always come a-gain
h = hammer on and when they are crowded it means to play fast
------------------------
----------1-------------
------------0-----------
-2h32--------2---------
--------3-------3-------
------------------3-2-1-


F                              C 
  You know I love to spend my morning time

C      G 
------------------------
------------------------
------------------------
------------------------
-3-2-0------------------
--------3---------------

G                               C   
  like sunlight dancing on your skin

G            C 
------------------------
------------------------
------------------------
--0-2-3-2-0-------------
-------------3----------
------------------------



C                     G7                   C
I have never gone so wrong as for telling lies to you

h means to hammer on  2h3 (crowded) means play it fast
                      F
------------------------
----------1-------------
------------0-----------
--------------2---------
--------3-------3-------
------------------3-2-1-


F                               C     
  What you've seen is what I've been

F                             C  
  There is nothing that I can hide from you

C      G
------------------------
------------------------
------------------------
------------------------
-3-2-0------------------
--------3---------------




G                        C  
  You see me better than I can

C                   F 
------------------------
------------------------
------------------------
------------------------
-3-3-1-1-0-0------------
--------------3-3-1-1---



F                              C  
Out on the road that lies be-fore me now
F                                   C    
  there are some turns where I will spin

h means to hammer on  2h3 means do it fast
                       F
------------------------
----------1-------------
------------0-----------
--------------2---------
----------------3-------
-------------------3-2-1-


F                           C  
  I only hope that you will hold me now

C         G
-------------
-------------
-------------
-------------
-3-2-1-0-----
----------3--


G7                            C  
   til I can gain control a-gain

lead in, repeat for lead out (I did not tabbed the melody lead)
---------------------------------
--------------------------------- 
---------------------------------
----------------------0-2-3-4-5--
------------0-2-3-5--------------
-3-3-3-3-3-----------------------   play melody, then lead out
Listen to the recording for timing. All those beginning 3s are played fast.



C               G7                       C  
Just like a lighthouse you must stand a-lone
F                                C  
  landmark a sailor's journey's end

h means to hammer on  2h3 (crowded) means do it fast
C                     F
------------------------
----------1-------------
------------0-----------
-2h3-2--------2---------
--------3-------3-------
------------------3-2-1-



F                               C   
  No matter what sea I've been sailing on
G                              C  
  I'll always roll this way a-gain
C                      F
---------------------------
---------------------------
---------------------------
-------------1-1-2-2-3-3---
-3-3-4-4-5-5---------------
---------------------------

CHORUS:
F                              C  
Out on the road that lies be-fore me now

------------------------
------------------------
------------------------
--3-3-3-2----3-3-0------
-------------------3----
------------------------

F                                   C    
  there are some turns where I will spin
F                           C  
  I only hope that you will hold me now

C         G
-------------
-------------
-------------
-------------
-3-2-1-0-----
----------3--



G7                           C  
   til I can gain control a-gain
 C                        F
-----------------------------------
-----------------------------------
-----------------------------------
------------------1-1-2-3----------
-3-3-3-3-3-3-4-4-------------------
-----------------------------------

repeat chorus, then go to ending

ENDING:
-----------------------------
-----------------------------
-----------------------------
-----------------0-2-3-4-5---
--------0-2-3-5--------------
-3-3-3-----------------------


TCMA relocator Page